My Love - Westlife

Lượt xem: 51 / 

Bình chọn:
  
Autoscroll
+/-
esc
tốc độ
tắt
(Intro)
Dm Am G F start strumimg C
down,down,up,up,up,down
E|--1--------1--|--------------|--------------|--1--------0--|
B|--------3-----|--1-----------|--3-----1--0--|--1-----0--1--|
G|-----2--------|--------2-----|--4-----------|--2--------0--|
D|--0-----------|--------------|--5-----------|--3--------2--|
A|--------------|--0-----------|--5-----------|--3--------3--|
E|--------------|--------------|--3-----------|--1-----------|
(Verse 1)
[C]
An empty street
[G]
An e mpty house
[Em] [Am]
A ho le inside m y heart
[F]
I'm a ll alone
[F] [G]
The rooms are getting s maller
[C]
I won der how
[G]
I won der why
[Em] [Am]
I won der where th ey are
[F]
The days we had
[F] [F#7] [G]
The songs we sang together ( oh yeah)
[F] [G]
An d all my love
[C] [Am]
I'm holding on for ever
[Dm] [F] [G]
Rea ching for a lov e that seems s o far.
(Chorus)
[F] [C]
So I say a little p rayer
[F] [C]
And hop e my dreams will take me there
[F]
Where t he skies are blue
[C] [Am7] [D] [G]
To see you once aga in my l ove
[F] [C]
Over seas from coast to coast
[F] [C]
To find the place I love the most
[F]
Where the fields are green
[C] [Am7] [D] [G]
To see y ou on ce aga in
[C]
My love
(Verse 2)
I try to read
I go to work
I'm laughing with my friends
But I can't stop to keep myself from thinking (oh no)
I wonder how
I wonder why
I wonder where they are
The days we had
The songs we sang together (oh yeah)
And all my love
I'm holding on forever
Reaching for a love that seems so far.
(Chorus)
So I say a little prayer
And hope my dreams will take me there
Where the skies are blue
To see you once again my love
Overseas from coast to coast
To find the place I love the most
Where the fields are green
To see you once again
(Bridge 1)
[E] [Am]
To hold you in my arms
[D] [G]
To promise you my love
[E] [Am]
To tell you from the heart
[D] [G]
You're all I'm thin king of
(Solo)
C G Em Am
E|-------------------------------------------|
B|-------------------------------------------|
G|----4-4/5-5-5---5-5/7-7-7---4-4-4-4-5-4/5--|
D|--7----------------------------------------|
A|-------------------------------------------|
E|-------------------------------------------|
(Bridge 2)
[Dm] [F] [G]
I'm reaching for a love that seems so far.
(Chorus)
[G] [D]
So I say a little p rayer
[G] [D]
And ho pe my dreams will ta ke me there
[G]
Where the skies are blue
[D] [Bm] [E] [A]
To see you once ag ain my love
[G] [D]
Over seas from coast to coast
[G] [D]
To find th e place I love th e most
[G]
Where the fields are green
[D] [Bm] [E] [A]
To see yo u on ce ag ain
[D]
My love
Say a little prayer (it must be love)
My dreams will take me there
Where the skies are blue (woah yeah)
To see you once again (oh my love)
Overseas from coast to coast
To find the place I love the most
Where the fields are green
To see you once again
My love